GAJAH – Tulus (Chord)


Capo di Fret III

Setidaknya punya tujuh puluh tahun
Tak bisa melompat, ku mahir berenang

e|--------------------------------------------
B|--3----3----3----3----3----3---3-----3------
G|-----0---0-----0---0-----0--0-----0---0-----
D|----0-0---0---0-0---0---0-0--0---0-0---0----
A|--2---------3---------0--------0------------
E|--------------------------------------------

Bahagia melihat kawan yang betina
Berkumpul bersama sampai ajal

e|------------------------------------------------------------------------
B|--3----3----------0---3----3-----3-----3---3-----3---3----3----3----3--3
G|-----0---0---0--0--0-----0---0------0---0-----0---0-----0---0--0--0--0--
D|----0-0---0----2-2--2---3-3---3----0-0---0---0-0---0---0-0---0-4-4-4--4-
A|--2-------------------3----------0---------2---------3---------5-------5
E|-------------0----------------------------------------------------------

(pola sama dengan di atas)

Besar dan berani berperang sendiri
Yang aku hindari hanya semut kecil
Otak ini cerdas, kurakit berangka
Wajahmu tak akan pernah ku lupa

CM7-CM7-Bm7-Bm7-Eadd9

Waktu kecil dulu,

mereka menertawakan

Mereka panggilku gajah

Am7                Dadd9(-5th)

(ku marah), ku marah

CM7-CM7-Bm7-Bm7-Eadd9
Kini baru ku tahu, puji di dalam olokan
Mereka ingat ku marah

Am7                Dadd9(-5th)
Jabat tanganku, panggil aku gajah

G              Bm7         C            G
Kau temanku, kau doakan aku

Bm7                 Em7    Am7          Dadd9(-5th)
Punya otak cerdas, aku harus tangguh

E-F#-G-B-C (bass line) G
Bila jatuh, gajah lah yang membantu

Bm7                 Em7    Am7          Dadd9(-5th)   G
kubumu, di situasi rela jadi tamengku

Ha, ha, ha, ha, ha, ha, ha, ha
Aa, aa, aa, aa, aa, aa, aa, aa

C               Bm7
Kecil kita tak tahu apa-apa
Wajar bila terlalu cepat marah
Kecil kita tak tahu apa-apa

C-B-A-G-D-D#E-D(bass line)
Yang terburuk kelak bisa jadi yang terbaik

C-B-A-G-D-G

Yang terburuk kelak bisa jadi yang terbaik

interlude: D#     F   G  A B C   B E A D

Kau temanku, kau doakan aku
Punya otak cerdas, aku harus tangguh
Bila jatuh, gajah lah yang membantu
kubumu, di situasi rela jadi tamengku

Kau temanku, kau doakan aku
Punya otak cerdas, aku harus tangguh
Bila jatuh, gajah lah yang membantu
kubumu, di situasi rela jadi tamengku

 

Detail variasi chord akan diupload di video tutorial, coming soon :p

Advertisements

Leave a Reply

Fill in your details below or click an icon to log in:

WordPress.com Logo

You are commenting using your WordPress.com account. Log Out / Change )

Twitter picture

You are commenting using your Twitter account. Log Out / Change )

Facebook photo

You are commenting using your Facebook account. Log Out / Change )

Google+ photo

You are commenting using your Google+ account. Log Out / Change )

Connecting to %s